Tabs Lezen

e|------------------------|
B|------------------------|
G|------------------------|
D|------------------------|
A|------------------------|
E|------------------------|

Tabs bestaan uit zes lijnen die de snaren van onze gitaar voorstellen. De onderste snaar van de tab is onze bovenste dikste snaar van onze gitaar. Dit zorgt voor wat verwarring in het begin, maar zal snel als normaal aanvoelen. We starten met lezen zoals een boek aan de linkerkant. Een denkbeeldige lijn beweegt van links naar rechts. Alls wat we tegenkomen gaan we spelen. In dit geval zien we geen nummers staan dus spelen we niets.

e|---------------0--------|
B|-------------0----------|
G|-----------1------------|
D|---------2--------------|
A|-------2----------------|
E|-----0------------------|

In de tab hiernaast merken we enkele cijfers op. Deze cijfers duiden aan welk vakje je moet indrukken op deze snaar. In ons voorbeeld komt onze denkbeeldige lijn eerst een 0 tegen op de dikke E Snaar. Vakje 0 betekent dat we geen vinger hoeven te zetten, maar wel de snaar aanslaan. Vervolgens spelen we vakje twee op de A snaar, dan vakje twee op de derde snaar, enz…

e|------------0-----------|
B|------------0-----------|
G|------------0-----------|
D|---------2--------------|
A|-------2----------------|
E|----0-------------------|

In de tab hiernaast zien we dat er drie cijfers onder elkaar staan. We moeten dus deze drie snaren tegelijk spelen. In dit voorbeeld spelen we dus de dikste E snaar zonder een vinger te zetten (dit heet ook open spelen), dan spelen we de A snaar in vakje twee, dan de D snaar in vakje twee om vervolgens de drie onderste snaren van onze gitaar open te spelen. 

e|--2------2-2--------2---|
B|------------------------|
G|------------------------|
D|------------------------|
A|------------------------|
E|------------------------|

Vergeleken met een notenbalk heeft een tab geen tijdsaanduiding. Dit wordt toch enigszinds opgelost door de nummers wat verder of dichter uit elkaar te plaatsen. In dit voorbeeld spelen het tweede vakje van de onderste e snaar. Vervolgens wachten we even, om dan het tweede vakje twee keer snel na elkaar te spelen. We wachten terug even en spelen de laatste twee op de onderste snaar. 

e|------------------------|
B|------------------------|
G|------------------------|
D|------2s5---------------|
A|------------------------|
E|------------------------|

In de tab hiernaast zien we dat er drie cijfers onder elkaar staan. We moeten dus d.